  0
SECTION
  2
HEADER
  9
$ACADVER
  1
AC1009
  9
$INSBASE
 10
0.0
 20
0.0
 30
0.0
  9
$EXTMIN
 10
-23.50783668065878
 20
-44.09440976181758
 30
-0.0000000000022887
  9
$EXTMAX
 10
183.6945954712605
 20
28.274710613255142
 30
0.0000000000000001
  9
$LIMMIN
 10
0.0
 20
0.0
  9
$LIMMAX
 10
410.0
 20
287.0
  9
$ORTHOMODE
 70
     0
  9
$REGENMODE
 70
     1
  9
$FILLMODE
 70
     1
  9
$QTEXTMODE
 70
     0
  9
$MIRRTEXT
 70
     1
  9
$DRAGMODE
 70
     2
  9
$LTSCALE
 40
25.0
  9
$OSMODE
 70
    39
  9
$ATTMODE
 70
     1
  9
$TEXTSIZE
 40
2.0
  9
$TRACEWID
 40
1.0
  9
$TEXTSTYLE
  7
SIMPLEX
  9
$CLAYER
  8
0
  9
$CELTYPE
  6
BYLAYER
  9
$CECOLOR
 62
   256
  9
$DIMSCALE
 40
1.0
  9
$DIMASZ
 40
3.5
  9
$DIMEXO
 40
0.1
  9
$DIMDLI
 40
7.0
  9
$DIMRND
 40
0.0
  9
$DIMDLE
 40
0.0
  9
$DIMEXE
 40
1.8
  9
$DIMTP
 40
0.0
  9
$DIMTM
 40
0.0
  9
$DIMTXT
 40
3.5
  9
$DIMCEN
 40
1.5
  9
$DIMTSZ
 40
0.0
  9
$DIMTOL
 70
     0
  9
$DIMLIM
 70
     1
  9
$DIMTIH
 70
     0
  9
$DIMTOH
 70
     0
  9
$DIMSE1
 70
     0
  9
$DIMSE2
 70
     0
  9
$DIMTAD
 70
     1
  9
$DIMZIN
 70
     0
  9
$DIMBLK
  1

  9
$DIMASO
 70
     0
  9
$DIMSHO
 70
     0
  9
$DIMPOST
  1

  9
$DIMAPOST
  1

  9
$DIMALT
 70
     0
  9
$DIMALTD
 70
     2
  9
$DIMALTF
 40
25.399999999999999
  9
$DIMLFAC
 40
1.0
  9
$DIMTOFL
 70
     0
  9
$DIMTVP
 40
0.0
  9
$DIMTIX
 70
     0
  9
$DIMSOXD
 70
     0
  9
$DIMSAH
 70
     0
  9
$DIMBLK1
  1

  9
$DIMBLK2
  1

  9
$DIMSTYLE
  2
STANDARD
  9
$DIMCLRD
 70
     0
  9
$DIMCLRE
 70
     0
  9
$DIMCLRT
 70
     0
  9
$DIMTFAC
 40
1.0
  9
$DIMGAP
 40
0.09
  9
$LUNITS
 70
     2
  9
$LUPREC
 70
     2
  9
$SKETCHINC
 40
1.0
  9
$FILLETRAD
 40
0.0
  9
$AUNITS
 70
     0
  9
$AUPREC
 70
     0
  9
$MENU
  1
ACAD
  9
$ELEVATION
 40
0.0
  9
$PELEVATION
 40
0.0
  9
$THICKNESS
 40
0.0
  9
$LIMCHECK
 70
     0
  9
$BLIPMODE
 70
     0
  9
$CHAMFERA
 40
0.5
  9
$CHAMFERB
 40
0.5
  9
$SKPOLY
 70
     0
  9
$TDCREATE
 40
2448527.3363592592
  9
$TDUPDATE
 40
2452677.715803449
  9
$TDINDWG
 40
0.0782022569
  9
$TDUSRTIMER
 40
0.0782022569
  9
$USRTIMER
 70
     1
  9
$ANGBASE
 50
0.0
  9
$ANGDIR
 70
     0
  9
$PDMODE
 70
     0
  9
$PDSIZE
 40
0.0
  9
$PLINEWID
 40
0.0
  9
$COORDS
 70
     0
  9
$SPLFRAME
 70
     0
  9
$SPLINETYPE
 70
     6
  9
$SPLINESEGS
 70
     8
  9
$ATTDIA
 70
     0
  9
$ATTREQ
 70
     1
  9
$HANDLING
 70
  4097
  9
$HANDSEED
  5
309
  9
$SURFTAB1
 70
     6
  9
$SURFTAB2
 70
     6
  9
$SURFTYPE
 70
     6
  9
$SURFU
 70
     6
  9
$SURFV
 70
     6
  9
$UCSNAME
  2

  9
$UCSORG
 10
0.0
 20
0.0
 30
0.0
  9
$UCSXDIR
 10
1.0
 20
0.0
 30
0.0
  9
$UCSYDIR
 10
0.0
 20
1.0
 30
0.0
  9
$PUCSNAME
  2

  9
$PUCSORG
 10
0.0
 20
0.0
 30
0.0
  9
$PUCSXDIR
 10
1.0
 20
0.0
 30
0.0
  9
$PUCSYDIR
 10
0.0
 20
1.0
 30
0.0
  9
$USERI1
 70
     0
  9
$USERI2
 70
     0
  9
$USERI3
 70
     0
  9
$USERI4
 70
     0
  9
$USERI5
 70
     0
  9
$USERR1
 40
0.0
  9
$USERR2
 40
0.0
  9
$USERR3
 40
0.0
  9
$USERR4
 40
0.0
  9
$USERR5
 40
0.0
  9
$WORLDVIEW
 70
     1
  9
$SHADEDGE
 70
     3
  9
$SHADEDIF
 70
    70
  9
$TILEMODE
 70
     1
  9
$MAXACTVP
 70
    48
  9
$PLIMCHECK
 70
     0
  9
$PEXTMIN
 10
1.0000000000000000E+020
 20
1.0000000000000000E+020
 30
1.0000000000000000E+020
  9
$PEXTMAX
 10
-1.0000000000000000E+020
 20
-1.0000000000000000E+020
 30
-1.0000000000000000E+020
  9
$PLIMMIN
 10
0.0
 20
0.0
  9
$PLIMMAX
 10
12.0
 20
9.0
  9
$UNITMODE
 70
     0
  9
$VISRETAIN
 70
     1
  9
$PLINEGEN
 70
     0
  9
$PSLTSCALE
 70
     0
  0
ENDSEC
  0
SECTION
  2
TABLES
  0
TABLE
  2
VPORT
 70
     4
  0
VPORT
  2
*ACTIVE
 70
     0
 10
0.0
 20
0.0
 11
1.0
 21
1.0
 12
80.093379395300857
 22
-7.9098495742812238
 13
0.0
 23
0.0
 14
10.0
 24
10.0
 15
10.0
 25
10.0
 16
0.0
 26
0.0
 36
1.0
 17
0.0
 27
0.0
 37
0.0
 40
98.260771244667879
 41
2.126099706744867
 42
50.0
 43
0.0
 44
0.0
 50
0.0
 51
0.0
 71
     0
 72
   100
 73
     1
 74
     0
 75
     0
 76
     0
 77
     0
 78
     0
  0
ENDTAB
  0
TABLE
  2
LTYPE
 70
     3
  0
LTYPE
  2
CONTINUOUS
 70
     0
  3
Solid line
 72
    65
 73
     0
 40
0.0
  0
LTYPE
  2
MITTKLEIN
 70
     0
  3
__ . __ . ___ 
 72
    65
 73
     4
 40
0.45
 49
0.25
 49
-0.1
 49
0.0
 49
-0.1
  0
LTYPE
  2
VERDECKT
 70
     0
  3
_ _ _ _ _ _ _ _ _ _ _ _ _ _ _ _ _ _ _ _ _ _ _
 72
    65
 73
     2
 40
0.375
 49
0.25
 49
-0.125
  0
ENDTAB
  0
TABLE
  2
LAYER
 70
     5
  0
LAYER
  2
0
 70
     0
 62
     7
  6
CONTINUOUS
  0
LAYER
  2
KON35
 70
     0
 62
     2
  6
CONTINUOUS
  0
LAYER
  2
TEXT35
 70
     0
 62
     2
  6
CONTINUOUS
  0
LAYER
  2
MITTELLI
 70
     0
 62
     1
  6
MITTKLEIN
  0
LAYER
  2
VERDECKT
 70
     0
 62
     1
  6
VERDECKT
  0
ENDTAB
  0
TABLE
  2
STYLE
 70
     3
  0
STYLE
  2
STANDARD
 70
     0
 40
0.0
 41
1.0
 50
0.0
 71
     0
 42
2.5
  3
txt
  4

  0
STYLE
  2
TEXT35
 70
     0
 40
3.5
 41
1.0
 50
0.0
 71
     0
 42
3.5
  3
simplex
  4

  0
STYLE
  2
SIMPLEX
 70
     0
 40
0.0
 41
1.0
 50
0.0
 71
     0
 42
2.0
  3
simplex
  4

  0
ENDTAB
  0
TABLE
  2
VIEW
 70
     0
  0
ENDTAB
  0
TABLE
  2
UCS
 70
     0
  0
ENDTAB
  0
TABLE
  2
APPID
 70
     1
  0
APPID
  2
ACAD
 70
     0
  0
ENDTAB
  0
TABLE
  2
DIMSTYLE
 70
     1
  0
DIMSTYLE
  2
STANDARD
 70
     0
  3

  4

  5

  6

  7

 40
1.0
 41
0.18
 42
0.0625
 43
0.38
 44
0.18
 45
0.0
 46
0.0
 47
0.0
 48
0.0
140
0.18
141
0.09
142
0.0
143
25.399999999999999
144
1.0
145
0.0
146
1.0
147
0.09
 71
     0
 72
     0
 73
     1
 74
     1
 75
     0
 76
     0
 77
     0
 78
     0
170
     0
171
     2
172
     0
173
     0
174
     0
175
     0
176
     0
177
     0
178
     0
  0
ENDTAB
  0
ENDSEC
  0
SECTION
  2
BLOCKS
  0
BLOCK
  8
0
  2
$MODEL_SPACE
 70
     0
 10
0.0
 20
0.0
 30
0.0
  3
$MODEL_SPACE
  1

  0
ENDBLK
  5
F5
  8
0
  0
BLOCK
 67
     1
  8
0
  2
$PAPER_SPACE
 70
     0
 10
0.0
 20
0.0
 30
0.0
  3
$PAPER_SPACE
  1

  0
ENDBLK
  5
FA
 67
     1
  8
0
  0
BLOCK
  8
0
  2
ACAD
 70
     0
 10
0.0
 20
0.0
 30
0.0
  3
ACAD
  1

  0
ENDBLK
  5
B
  8
0
  0
BLOCK
  8
0
  2
CAD
 70
     0
 10
0.0
 20
0.0
 30
0.0
  3
CAD
  1

  0
INSERT
  5
1E
  8
KON35
  2
ACAD
 10
219.7466754081957
 20
258.0988816558845
 30
0.0
  0
ENDBLK
  5
20
  8
0
  0
ENDSEC
  0
SECTION
  2
ENTITIES
  0
INSERT
  5
3
  8
KON35
  2
ACAD
 10
611.67473072830069
 20
262.34888165588433
 30
0.0
  0
LINE
  5
C
  8
MITTELLI
 10
-23.494608484370641
 20
0.0000000000000568
 30
0.0
 11
183.6782979108072
 21
-0.0000000000002558
 31
0.0
  0
LINE
  5
F
  8
0
 10
0.0
 20
28.249960200000061
 30
0.0
 11
0.0
 21
-28.249960199999801
 31
0.0
  0
INSERT
  5
11
  8
KON35
  2
ACAD
 10
1001.6640374469659
 20
269.19283483160649
 30
0.0
  0
INSERT
  5
12
  8
KON35
  2
ACAD
 10
1687.9183674146921
 20
382.30321741200709
 30
0.0
  0
LINE
  5
13
  8
0
 10
0.0
 20
28.249960200000061
 30
0.0
 11
181.30000000000001
 21
28.249960199999659
 31
0.0
  0
LINE
  5
14
  8
0
 10
0.0
 20
-28.249960199999801
 30
0.0
 11
156.5735024217945
 21
-28.24996020000011
 31
0.0
  0
INSERT
  5
15
  8
KON35
  2
ACAD
 10
1001.014675725944
 20
263.03967115788242
 30
0.0
  0
INSERT
  5
16
  8
KON35
  2
ACAD
 10
1201.8720286009509
 20
326.92890892106499
 30
0.0
  0
INSERT
  5
17
  8
KON35
  2
ACAD
 10
1001.003878233722
 20
262.34888165588433
 30
0.0
  0
INSERT
  5
18
  8
KON35
  2
ACAD
 10
1033.981913451516
 20
270.24018600371039
 30
0.0
  0
INSERT
  5
19
  8
KON35
  2
ACAD
 10
1220.3384542935071
 20
310.44614540078669
 30
0.0
  0
INSERT
  5
1A
  8
VERDECKT
  2
CAD
 10
1321.9481047729359
 20
40.273542154209757
 30
0.0
  0
INSERT
  5
21
  8
VERDECKT
  2
CAD
 10
1635.6172637074631
 20
123.4404418294079
 30
0.0
  0
INSERT
  5
22
  8
KON35
  2
ACAD
 10
2241.7967140075689
 20
260.25567566346808
 30
0.0
  0
INSERT
  5
23
  8
KON35
  2
ACAD
 10
2230.2789686957649
 20
463.99045464595349
 30
0.0
  0
INSERT
  5
2A
  8
KON35
  2
ACAD
 10
999.76870324790366
 20
265.6336243336047
 30
0.0
  0
INSERT
  5
2B
  8
KON35
  2
ACAD
 10
1686.0230332156291
 20
378.7440069140053
 30
0.0
  0
LINE
  5
2F
  8
0
 10
4.6999999999999877
 20
28.249960200000029
 30
0.0
 11
4.6999999999999877
 21
-28.249960199999968
 31
0.0
  0
LINE
  5
30
  8
0
 10
96.699999999999989
 20
28.249960200000029
 30
0.0
 11
96.699999999999989
 21
-28.249960199999968
 31
0.0
  0
TEXT
  5
31
  8
0
 10
10.030807765467889
 20
-22.538285615779639
 30
0.0
 40
3.2000000000000002
  1
SM 56.3.18J BE50
  7
SIMPLEX
  0
LINE
  5
39
  8
0
 10
-1.5
 20
19.050000000000122
 30
0.0
 11
-1.4999999999999849
 21
-19.049999999999891
 31
0.0
  0
LINE
  5
3A
  8
0
 10
-1.5
 20
3.1750000000000682
 30
0.0
 11
-20.499999999999979
 21
3.175000000000153
 31
0.0
  0
LINE
  5
3B
  8
0
 10
-1.5
 20
-3.1749999999998968
 30
0.0
 11
-20.499999999999979
 21
-3.1749999999998968
 31
0.0
  0
LINE
  5
3C
  8
0
 10
0.0
 20
19.050000000000122
 30
0.0
 11
-1.5
 21
19.050000000000122
 31
0.0
  0
LINE
  5
3D
  8
0
 10
-0.0000000000000142
 20
-19.049999999999919
 30
0.0
 11
-1.5
 21
-19.049999999999919
 31
0.0
  0
LINE
  5
3E
  8
0
 10
-21.0
 20
2.6750000000001251
 30
0.0
 11
-21.000000000000011
 21
-2.6749999999998968
 31
0.0
  0
LINE
  5
3F
  8
0
 10
-20.499999999999979
 20
3.175000000000153
 30
0.0
 11
-20.499999999999979
 21
-3.1749999999998968
 31
0.0
  0
LINE
  5
40
  8
0
 10
-20.500000000000011
 20
-3.1749999999998968
 30
0.0
 11
-21.000000000000011
 21
-2.6749999999998968
 31
0.0
  0
LINE
  5
41
  8
0
 10
-21.0
 20
2.6750000000001251
 30
0.0
 11
-20.5
 21
3.1750000000001251
 31
0.0
  0
LINE
  5
42
  8
0
 10
178.30000000000001
 20
28.249960199999709
 30
0.0
 11
178.30000000000001
 21
-28.249960200000281
 31
0.0
  0
LINE
  5
43
  8
0
 10
181.30000000000001
 20
28.249960199999709
 30
0.0
 11
181.30000000000001
 21
-28.24996020000011
 31
0.0
  0
INSERT
  5
44
  8
KON35
  2
ACAD
 10
522.82707285807555
 20
413.69185239206303
 30
0.0
  0
INSERT
  5
45
  8
KON35
  2
ACAD
 10
912.81637957674172
 20
420.53580556778519
 30
0.0
  0
INSERT
  5
46
  8
KON35
  2
ACAD
 10
1599.070709544467
 20
533.64618814818584
 30
0.0
  0
INSERT
  5
6D
  8
KON35
  2
ACAD
 10
912.16701785571934
 20
414.38264189406112
 30
0.0
  0
INSERT
  5
6E
  8
KON35
  2
ACAD
 10
1113.024370730727
 20
478.27187965724369
 30
0.0
  0
INSERT
  5
6F
  8
KON35
  2
ACAD
 10
1300.0779962041911
 20
420.53334647513282
 30
0.0
  0
INSERT
  5
70
  8
KON35
  2
ACAD
 10
1986.3323261719161
 20
533.64372905553341
 30
0.0
  0
INSERT
  5
71
  8
KON35
  2
ACAD
 10
1299.428634483168
 20
414.38018280140881
 30
0.0
  0
INSERT
  5
72
  8
KON35
  2
ACAD
 10
1299.428634483168
 20
414.38018280140881
 30
0.0
  0
INSERT
  5
73
  8
KON35
  2
ACAD
 10
1360.500568263212
 20
780.94836347895227
 30
0.0
  0
INSERT
  5
74
  8
KON35
  2
ACAD
 10
1241.5095047972579
 20
696.76600267105789
 30
0.0
  0
INSERT
  5
75
  8
KON35
  2
ACAD
 10
1692.930045353
 20
417.13372439587459
 30
0.0
  0
TEXT
  5
76
  8
TEXT35
 10
1329.627191253255
 20
270.53186512989572
 30
0.0
 40
3.5
  1

  7
TEXT35
  0
INSERT
  5
79
  8
KON35
  2
ACAD
 10
1740.2609349375091
 20
613.22936655822059
 30
0.0
  0
INSERT
  5
7A
  8
KON35
  2
ACAD
 10
1972.4266957587979
 20
617.29567051613037
 30
0.0
  0
INSERT
  5
7B
  8
KON35
  2
ACAD
 10
1949.7096811695701
 20
616.24783213446221
 30
0.0
  0
INSERT
  5
7C
  8
KON35
  2
ACAD
 10
2355.1378771877671
 20
616.48759033137856
 30
0.0
  0
INSERT
  5
7D
  8
KON35
  2
ACAD
 10
2355.1378771877671
 20
616.48759033137856
 30
0.0
  0
INSERT
  5
7E
  8
KON35
  2
ACAD
 10
2764.7471325791512
 20
617.16823033551805
 30
0.0
  0
INSERT
  5
7F
  8
KON35
  2
ACAD
 10
2996.912893400442
 20
621.23453429342771
 30
0.0
  0
INSERT
  5
80
  8
KON35
  2
ACAD
 10
2282.8232362264648
 20
431.28259576526
 30
0.0
  0
INSERT
  5
81
  8
KON35
  2
ACAD
 10
1298.0543677782921
 20
415.07585246798652
 30
0.0
  0
INSERT
  5
82
  8
KON35
  2
ACAD
 10
1298.0543677782921
 20
415.07585246798652
 30
0.0
  0
INSERT
  5
83
  8
KON35
  2
ACAD
 10
1359.1263015583361
 20
781.64403314552987
 30
0.0
  0
INSERT
  5
84
  8
KON35
  2
ACAD
 10
1240.135238092382
 20
697.4616723376356
 30
0.0
  0
INSERT
  5
85
  8
KON35
  2
ACAD
 10
1691.555778648124
 20
417.82939406245242
 30
0.0
  0
TEXT
  5
86
  8
TEXT35
 10
1328.252924548379
 20
271.22753479647338
 30
0.0
 40
3.5
  1

  7
TEXT35
  0
INSERT
  5
87
  8
KON35
  2
ACAD
 10
1738.886668232632
 20
613.9250362247983
 30
0.0
  0
INSERT
  5
88
  8
KON35
  2
ACAD
 10
1971.0524290539231
 20
617.99134018270809
 30
0.0
  0
INSERT
  5
89
  8
KON35
  2
ACAD
 10
1948.3354144646939
 20
616.94350180104004
 30
0.0
  0
INSERT
  5
8A
  8
KON35
  2
ACAD
 10
2353.7636104828912
 20
617.18325999795638
 30
0.0
  0
INSERT
  5
8B
  8
KON35
  2
ACAD
 10
2353.7636104828912
 20
617.18325999795638
 30
0.0
  0
INSERT
  5
8C
  8
KON35
  2
ACAD
 10
2763.3728658742748
 20
617.86390000209565
 30
0.0
  0
INSERT
  5
8D
  8
KON35
  2
ACAD
 10
2995.5386266955661
 20
621.93020396000554
 30
0.0
  0
INSERT
  5
8E
  8
KON35
  2
ACAD
 10
2281.4489695215898
 20
431.97826543183788
 30
0.0
  0
INSERT
  5
8F
  8
KON35
  2
ACAD
 10
913.55257010251569
 20
413.68939329941071
 30
0.0
  0
INSERT
  5
90
  8
KON35
  2
ACAD
 10
1099.909110944506
 20
453.89535269648701
 30
0.0
  0
INSERT
  5
91
  8
VERDECKT
  2
CAD
 10
1201.5187614239351
 20
183.72274944991
 30
0.0
  0
INSERT
  5
92
  8
VERDECKT
  2
CAD
 10
1515.187920358462
 20
266.88964912510812
 30
0.0
  0
INSERT
  5
93
  8
KON35
  2
ACAD
 10
2121.3673706585678
 20
403.7048829591684
 30
0.0
  0
INSERT
  5
94
  8
KON35
  2
ACAD
 10
2109.8496253467629
 20
607.43966194165375
 30
0.0
  0
LINE
  5
96
  8
0
 10
178.30000000000001
 20
28.24996019999989
 30
0.0
 11
178.30000000000001
 21
-28.24996020000011
 31
0.0
  0
LINE
  5
97
  8
0
 10
105.0
 20
28.249960200000029
 30
0.0
 11
105.0
 21
-28.249960199999968
 31
0.0
  0
LINE
  5
D3
  8
0
 10
136.0
 20
28.249960200000029
 30
0.0
 11
136.0
 21
-28.249960199999968
 31
0.0
  0
ARC
  5
2A0
  8
0
 10
164.7182133429485
 20
-29.05125742007721
 30
0.0
 40
4.7379981698710409
 50
226.24243683463379
 51
313.75756316536172
  0
LINE
  5
2A1
  8
0
 10
159.23239713300919
 20
-34.70280691568567
 30
0.0
 11
156.57350242179271
 21
-31.769914443411949
 31
0.0
  0
LINE
  5
2A2
  8
0
 10
170.3676028669905
 20
-34.70280691568567
 30
0.0
 11
173.026497578207
 21
-31.769914443411949
 31
0.0
  0
LINE
  5
2A3
  8
0
 10
155.52860716276041
 20
-38.58430664147707
 30
0.0
 11
155.52860716276041
 21
-28.249960200000139
 31
0.0
  0
LINE
  5
2A4
  8
0
 10
174.22860716276051
 20
-28.249960200000139
 30
0.0
 11
174.22860716276051
 21
-38.58430664147707
 31
0.0
  0
LINE
  5
2A5
  8
0
 10
171.88800762753661
 20
-44.08430664147707
 30
0.0
 11
169.54740809231339
 21
-44.08430664147707
 31
0.0
  0
ARC
  5
2A6
  8
0
 10
171.88800762753661
 20
-40.70002223442583
 30
0.0
 40
3.384284407051366
 50
226.2424368346453
 51
313.75756316535728
  0
LINE
  5
2A7
  8
0
 10
174.22860716276051
 20
-38.58430664147707
 30
0.0
 11
155.52860716276041
 21
-38.58430664147707
 31
0.0
  0
LINE
  5
2A8
  8
0
 10
174.22860716276051
 20
-41.334306641477077
 30
0.0
 11
155.52860716276041
 21
-41.334306641477077
 31
0.0
  0
LINE
  5
2A9
  8
0
 10
164.79999999999791
 20
-35.944845170883141
 30
0.0
 11
159.23239713300919
 21
-34.70280691568567
 31
0.0
  0
ARC
  5
2AA
  8
0
 10
164.8786071627604
 20
-32.018698383913723
 30
0.0
 40
12.06560825756339
 50
247.23507674444241
 51
292.76492325555751
  0
LINE
  5
2AB
  8
0
 10
169.54740809231339
 20
-44.08430664147707
 30
0.0
 11
160.2098062332075
 21
-44.08430664147707
 31
0.0
  0
LINE
  5
2AC
  8
0
 10
157.38207050765351
 20
-41.334306641477077
 30
0.0
 11
157.38207050765351
 21
-38.58430664147707
 31
0.0
  0
ARC
  5
2AD
  8
0
 10
157.8692066979842
 20
-40.700022234426797
 30
0.0
 40
3.3842844070507421
 50
226.24243683463359
 51
313.75756316536172
  0
LINE
  5
2AE
  8
0
 10
155.52860716276041
 20
-43.144398384595647
 30
0.0
 11
155.52860716276041
 21
-41.334306641477077
 31
0.0
  0
LINE
  5
2AF
  8
0
 10
160.2098062332075
 20
-44.08430664147707
 30
0.0
 11
157.86920669798411
 21
-44.08430664147707
 31
0.0
  0
LINE
  5
2B0
  8
0
 10
160.2098062332075
 20
-41.334306641477077
 30
0.0
 11
160.2098062332075
 21
-43.144398384596037
 31
0.0
  0
LINE
  5
2B1
  8
0
 10
169.54740809231339
 20
-41.334306641477077
 30
0.0
 11
169.54740809231339
 21
-43.144398384596037
 31
0.0
  0
LINE
  5
2B2
  8
0
 10
164.8000000000016
 20
-35.944845170883141
 30
0.0
 11
170.3676028669905
 21
-34.70280691568567
 31
0.0
  0
LINE
  5
2B3
  8
0
 10
172.37514381786741
 20
-41.334306641477077
 30
0.0
 11
172.37514381786741
 21
-38.58430664147707
 31
0.0
  0
LINE
  5
2B4
  8
0
 10
174.22860716276051
 20
-43.144398384596279
 30
0.0
 11
174.22860716276051
 21
-41.334306641477077
 31
0.0
  0
LINE
  5
2B5
  8
0
 10
170.36760286698851
 20
-23.739349625449709
 30
0.0
 11
173.02649757820481
 21
-26.672242097723561
 31
0.0
  0
LINE
  5
2B6
  8
0
 10
170.3676028669905
 20
-28.83702197114221
 30
0.0
 11
173.026497578207
 21
-31.76991444341618
 31
0.0
  0
ARC
  5
2B7
  8
0
 10
164.84535045572741
 20
-21.17607805490448
 30
0.0
 40
10.845379634911399
 50
30.914297532252661
 51
150.03146106313659
  0
ARC
  5
2B8
  8
0
 10
164.79999999999231
 20
-27.966886057931809
 30
0.0
 40
10.637884102001371
 50
29.661149538212559
 51
150.33885046152321
  0
ARC
  5
2B9
  8
0
 10
165.10573726027309
 20
-30.219663926119139
 30
0.0
 40
10.086132995562879
 50
45.458446179561122
 51
137.96236487082291
  0
LINE
  5
2BA
  8
0
 10
155.4499999999997
 20
-23.724773583776749
 30
0.0
 11
155.4499999999997
 21
-15.75854639930548
 31
0.0
  0
ARC
  5
2BB
  8
0
 10
164.71821334294921
 20
-34.449617608056322
 30
0.0
 40
4.7379981698710409
 50
46.242436834654129
 51
133.75756316538181
  0
LINE
  5
2BC
  8
0
 10
164.79999999999791
 20
-27.594983715944981
 30
0.0
 11
159.23239713300919
 21
-28.83702197114221
 31
0.0
  0
LINE
  5
2BD
  8
0
 10
164.7999999999997
 20
-22.497311370252369
 30
0.0
 11
159.2323971330112
 21
-23.739349625449709
 31
0.0
  0
LINE
  5
2BE
  8
0
 10
159.2323971330112
 20
-23.739349625449709
 30
0.0
 11
159.2323971330112
 21
-28.837021971141841
 31
0.0
  0
LINE
  5
2BF
  8
0
 10
156.5735024217947
 20
-31.769914443413938
 30
0.0
 11
156.57350242179439
 21
-26.672242097723561
 31
0.0
  0
LINE
  5
2C0
  8
0
 10
159.23239713300919
 20
-28.83702197114221
 30
0.0
 11
156.57350242179271
 21
-31.76991444341618
 31
0.0
  0
ARC
  5
2C1
  8
0
 10
162.35989388565699
 20
-31.75043751406708
 30
0.0
 40
1.1689013890802149
 50
141.79450567699371
 51
218.20549432302201
  0
LINE
  5
2C2
  8
0
 10
159.2323971330112
 20
-23.739349625449709
 30
0.0
 11
156.57350242179439
 21
-26.672242097723561
 31
0.0
  0
LINE
  5
2C3
  8
0
 10
157.61471442034451
 20
-25.523733727043599
 30
0.0
 11
157.61471442034451
 21
-23.465801652142371
 31
0.0
  0
ARC
  5
2C4
  8
0
 10
159.99632060936699
 20
-23.679688098382488
 30
0.0
 40
4.546544158385581
 50
167.58885863363011
 51
221.16305054216909
  0
LINE
  5
2C5
  8
0
 10
170.36760286698851
 20
-23.739349625449709
 30
0.0
 11
170.36760286698851
 21
-28.837021971141841
 31
0.0
  0
LINE
  5
2C6
  8
0
 10
164.7999999999997
 20
-22.497311370252369
 30
0.0
 11
164.7999999999997
 21
-27.67435360702947
 31
0.0
  0
LINE
  5
2C7
  8
0
 10
164.8000000000016
 20
-27.594983715944981
 30
0.0
 11
170.3676028669905
 21
-28.83702197114221
 31
0.0
  0
ARC
  5
2C8
  8
0
 10
167.07653280023911
 20
-31.750437514066451
 30
0.0
 40
1.1689013890802149
 50
321.79450567699371
 51
38.205494323022037
  0
LINE
  5
2C9
  8
0
 10
164.7999999999997
 20
-22.497311370252369
 30
0.0
 11
170.36760286698851
 21
-23.739349625449709
 31
0.0
  0
LINE
  5
2CA
  8
0
 10
174.14999999999981
 20
-15.604206171629381
 30
0.0
 11
174.14999999999981
 21
-23.465801652142371
 31
0.0
  0
LINE
  5
2CB
  8
0
 10
173.02649757820541
 20
-28.249960200000089
 30
0.0
 11
181.30000000000001
 21
-28.24996020000011
 31
0.0
  0
LINE
  5
2CC
  8
0
 10
173.026497578207
 20
-31.769914443411949
 30
0.0
 11
173.02649757820481
 21
-26.672242097723561
 31
0.0
  0
LINE
  5
2CD
  8
0
 10
172.1804168693906
 20
-25.523733727043599
 30
0.0
 11
172.1804168693906
 21
-23.030854064081989
 31
0.0
  0
ARC
  5
2CE
  8
0
 10
169.6085991543068
 20
-23.68573191615938
 30
0.0
 40
4.546544158385581
 50
318.76489886056368
 51
12.339090769102761
  0
ENDSEC
  0
EOF
